? Chord Guitar Killing Me Inside - The Tormented | KordKita™

Browse Chord Gitar and Lyrics by Artist or Band »

A | B | C | D | E | F | G | H | I | J | K | L | M | N | O | P | Q | R | S | T | U | V | W | X | Y | Z |



The Tormented

1 Star2 Stars3 Stars4 Stars5 Stars (39 votes, average: 4.23 out of 5)
Loading ... Loading ...
Intro guitar/piano
----------------------------------------------------|
-------------------5-6-8-5-6------------------------|
-----------------7-----------5----7-9-10-12-10-9-5~-|
--------------7-7-7-7-7-7-7-7--8-8-8-8-8---8--8-8---|
----------------------------------------------------|
----------------------------------------------------|
continue
---------------------8-0----------------------------|
-------------------5-----6--------------------------|
-----------------7---------5----7-9-10-12~~---------|
--------------7-7-7-7-7-7-7--8-8-8-8--8-------------|
----------------------------------------------------|
----------------------------------------------------|

D Bb C 2x

For the last time !!
D Bb C
You waste my tears now, no more torment
D Bb C
But don’t just say u’ve gone away
D Bb
You tell a fuckin’ tale
C
(Swallow me and spit me out)
D Bb
How do I get trought of this?
C
(I can’t stand it anymore)

*Reff
D
Can, you, see, me…
Bb C
Smiling when I sing this song
D
Right, now…
Bb C
I just want to be alive
D
You know I was dying when you told me
Bb C
(That I’m not yours anymore)
D
You know I was dying when you told me
Bb C D
(Youre just playing and fooling around with me)
D Bb
When the time she comes and wakes me
C
(She comes and wakes me)
D Bb C
And when she bit my lips and kissed me there
D Bb C
And when she holds my hand and lives my life tonight
(Live tonight)
D Bb
When she said that she really loves me
C D
Were the worst fucking days
D
I’m dying and bleeding of my past
Bb C D
I’m dying and bleeding of my past
D
Now slit my throat and let me bleed
Bb C D
Now slit my throat and let me bleed

Back to *reff

C B
But suddenly you came to me, and begged me to be yours again
C B D
Right now you’re holding my hand but sorry baby, but all I can say is
E
No, hell no…

Ending 2x

C B C D
Can you see the times grows older she blew my dreams away
C B
It’s all done, the time is over
C D
I don’t know how to say to you

[C]opyright KordKita dot Web dot Id

CHORD GITAR PILIHAN

  1. No comments yet.

  1. No trackbacks yet.

*


Gambar Chord Gitar/ Guitar Chord Chart

GambarChord

 
close
. : Akses KordKita™ lebih ringan dimana aja dari HP kamu di m.kordkita.web.id
Latihan band atau ngegitar sambil nongkrong jadi lancar dengan kumpulan kord dari KordKita™ : .

Switch to our mobile site