? Chord Guitar Superman Is Dead - Kuat Kita Bersinar (TAB) | KordKita™

Browse Chord Gitar and Lyrics by Artist or Band »

A | B | C | D | E | F | G | H | I | J | K | L | M | N | O | P | Q | R | S | T | U | V | W | X | Y | Z |



Kuat Kita Bersinar (TAB)

1 Star2 Stars3 Stars4 Stars5 Stars (36 votes, average: 4.11 out of 5)
Loading ... Loading ...

intro
e|-------------------------------------------------|
B|101010-0-999-0-777-0-----0-101010-0-999-0-779910-|
G| 9 9 9-0-999-0-777-0-999-0- 9 9 9-0-999-0-7799 9-|
D|---------------------777-0-----------------------|
A|-------------------------------------------------|
E|-------------------------------------------------|
pm...

e|------------------|   e|-------|
B|------------------|   B|-------|
G|------9-9-0-79----|   G|9--9-9-|
D|7-7-0-9-9-0-797-0-|2X D|9--9-9-|
A|7-7-0-7-7-0-577-0-|   A|7--7-7-|
E|5-5-0-----0---5-0-|   E|-------|

Verse 1 and 2
e|---------------------------------------------------------------------------------|
B|101010-0-999-0-777-0-----0-101010-0-999-0-779910-101010-0-999-0-777-0-----0------|
G| 9 9 9-0-999-0-777-0-999-0- 9 9 9-0-999-0-7799-9- 9 9 9-0-999-0-777-0-999-0- 9---|
D|---------------------777-0--------------------------------------------777-0------|
A|---------------------------------------------------------------------------------|
E|---------------------------------------------------------------------------------|
pm...

----------------------------------|
101010-0-999-0-779910-0-----------|
9 9-0-999-0-7799 9-0-9--9-9-999---|
--------------------9--9-9-999----|
--------------------7--7-7-777----|
----------------------------------|

e|---------------------------------------------------------------------------------|
B|101010-0-999-0-777-0-----0-101010-0-999-0-779910-101010-0-999-0-777-0-----0------|
G| 9 9 9-0-999-0-777-0-999-0- 9 9 9-0-999-0-7799 9- 9 9 9-0-999-0-777-0-999-0- 9---|
D|---------------------777-0--------------------------------------------777-0------|
A|---------------------------------------------------------------------------------|
E|---------------------------------------------------------------------------------|

-------------------------------------|
101010-0-999-0-779910-0--------------|
9 9-0-999-0-7799 9-0-9--9-9-999------|
--------------------9--9-9-999-------|
--------------------7--7-7-777-------|
-------------------------------------|

chorus 1 and 2
e|---------------------------------------------------------------------|
B|---------------------------------------------------------------------|
G|7-7-9-9---------7-7-9-9--7----7-7-9-9---------7-7-9-9---------9999999|
D|7-7-9-9-7-7-4-4-7-7-9-9-777-7-7-7-9-9-7-7-4-4-7-7-9-9-7-77-77-9999999|
A|5-5-7-7-7-7-4-4-5-5-7-7-757-7-5-5-7-7-7-7-4-4-5-5-7-7-7-77-77-7777777|
E|--------5-5-2-2---------5-5-5---------5-5-2-2---------5-55-55--------|

bridge
e|-------------------5-------5-|   e|-------------------------------------------|
B|--------------------5-------5|   B|-------------------------------------------|
G|7-7-7-7-9-9-9-9---5-------5--|2X G|7-7-7779-99-999------------------7-7-77779\|
D|7-7-7-7-9-9-9-9-7------7-----|   D|7-7-7779-99-999-7-7-6764-44-4444-7-7-77779\|
A|5-5-5-5-7-7-7-7-7------7-----|   A|5-5-5557-77-777-7-7-6764-44-4444-5-5-55557\|
E|----------------5------5-----|   E|----------------5-5-4542-22-2222-----------|

Solo Guitar
e|-------------------------------|
B|-------------------------------|
G|----9-9-7-9---------9-9-7-9----|2X
D|7-7-9-9-7-9-7-7-7-7-9-9-7-9-7-7|
A|7-7-7-7-5-7-7-7-7-7-7-7-5-7-7-7|
E|5-5---------5-5-5-5---------5-5|

Pre-Chorus
e|-------------------------------|    e|---------------------------|
B|-------------------------------|    B|---------------------------|
G|----9-9-7-9---------9-9-7-9----|4X  G|---------------------------|
D|7-7-9-9-7-9-7-7-7-7-9-9-7-9-7-7|    D|9--9---9--9--9-99999999997-|
A|7-7-7-7-5-7-7-7-7-7-7-7-5-7-7-7|    A|9--9---9--9--9-99999999997-|
E|5-5---------5-5-5-5---------5-5|    E|7--7---7--7--7-77777777775-|

Chorus3
e|----|--------------------------|
B|----|--------------------------|
G|-7--|777---999-----------------|
D|777-|777---999----777--77777777|
A|757-|555---777----777--77777777|
E|5-5-|-------------555--55555555|

e|----------------------------------------------------------|
B|----------------------------------------------------------|
G|7-7-9-9---------7-7-9-9--7----7-7-9-9---------7-7-9-9-----|2X
D|7-7-9-9-7-7-4-4-7-7-9-9-777-7-7-7-9-9-7-7-4-4-7-7-9-9-7-77|
A|5-5-7-7-7-7-4-4-5-5-7-7-757-7-5-5-7-7-7-7-4-4-5-5-7-7-7-77|
E|--------5-5-2-2---------5-5-5---------5-5-2-2---------5-55|

e|--------------------------------------------------------------------------------------|
B|--------------------------------------------------------------------------------------|
G|7-7-9-9---------7-7-9-9---------7-7-7-7-7-7-7-7-9-9-9-9-9-9-9-9--------------------7--|
D|7-7-9-9-7-77-77-7-7-9-9-7-77-77-7-7-7-7-7-7-7-7-9-9-9-9-9-9-9-9-7-7777777777777777-77-|
A|5-5-7-7-7-77-77-5-5-7-7-7-77-77-5-5-5-5-5-5-5-5-7-7-7-7-7-7-7-7-7-7777777777777777-57-|
E|--------5-55-55---------5-55-55---------------------------------5-5555555555555555--5-|
[C]opyright KordKita dot Web dot Id

CHORD GITAR PILIHAN

  1. No comments yet.

  1. No trackbacks yet.

*


Gambar Chord Gitar/ Guitar Chord Chart

GambarChord

 
close
. : Sudah kami minimalkan iklan-iklan di website kami, mohon maaf atas ketidaknyamanannya : .

Switch to our mobile site